Список форумов .::Russian Blood Community Forum::.
Официальный форум русского сообщества фанатов игры BLOOD
Deep Cold Grave
Официальный сайт издательства ОНО
BloodGame

 

Blood: The Game We Playing In
Music, f***, that we listen, when we playing Blood
Зацените демо "Main Blood ­ Theme"!
[Страниц (2): « 1 [2] ]

Зацените демо "Main Blood ­ Theme"!
| Новая тема | Ответить | | Поиск в теме |
| Версия для печати |
ForAdun



Ученик мясника
Откуда: Aiur
ICQ
Вернуться к началу
WWW : Профиль :

LifeKILLEDзамерз он открыл новый эффект зимы - падение скорости игры на басу изза холодов.
а еще ведь этот theme встречается в сетапах реднека и etc, а еще я видал файл Class.exe там болталась эмблемка Класс и играл этот мюзик. тем неменее он рууулит!а демо класс! респект!


-----
Wanna BLOOD???
...Someone BLOOD???
Spill your own BLOOD at first!!!

Всего записей: 35 : Дата рег-ции: Март 2005 : Отправлено: 24 Января, 2006 - 21:43:14
DeadFire



Musical Prostitute

Вернуться к началу
WWW : Профиль :

to ForAdun:
Спасибо!


Всего записей: 304 : Дата рег-ции: Июнь 2004 : Отправлено: 24 Января, 2006 - 22:07:27
LifeKILLED




Откуда: from burning desert. ...

ICQ
Вернуться к началу
WWW : Профиль :

Цитата:
LifeKILLEDзамерз он открыл новый эффект зимы - падение скорости игры на басу изза холодов.
Тогда, когда я отморозил руку (подробности - у нашего спецкора Чармеда в колонке новостей сайта "ОНО"), было действительно холодно, наверно как на Марсе. Но ничего, когда рука пройдет, я покажу вам как надо играть на бас гитаре Достал пиликать! Между прочим странно - сам басист, а басовой партии для саундтрэка Секты не добавил... Но я это обязательно исправлю. Кстати, DeadFire, могу составить партию ударных, только скажи, в каком духе ее сделать Улыбка

Всего записей: 1694 : Дата рег-ции: Июль 2004 : Отправлено: 25 Января, 2006 - 00:35:29
DeadFire



Musical Prostitute

Вернуться к началу
WWW : Профиль :

to LifeKILLED:
Было бы великолепно, если б ты мне помог с ударными!
Думаю, что партия должна быть, как я уже писал, базой атмосферы - чтобы она подчеркивала ритм синти-струнных и, когда мелодия "отдыхает" проводила оригинальные соло-выпады.
Формат не имеет значения, будь то миди или с миди засэмплированное аудио.

to All:
Хочу сразу предупредить... Т.к. работа кропотливая, требующая много терпения и старания дело может затянуться на неопределённые сроки.
Постараюсь, но не обещаю, что завершу композицию к концу февраля или началу марта.

Спасибо всем за внимание.

Всего записей: 304 : Дата рег-ции: Июнь 2004 : Отправлено: 25 Января, 2006 - 19:59:11
ForAdun



Ученик мясника
Откуда: Aiur
ICQ
Вернуться к началу
WWW : Профиль :

видел эту тему в миди с басом, не знаю, вытащил кусок.
Q=124
4/4
Gtrs I, II
E S S E S S S S S S S S E E S S E S S S S S S +S S E
|---------------------------|-----------------------------|
|---------------------------|-----------------------------|
|---------------------------|-------------------5-(5)-5---|
|-5-5-5-5-5-5-6-6-6-3---3-0-|-5-5-5-5-5-5-6-6-6---------0-|


E S S E S S S S S S S S E E S S E S S S S S S +S S E
|---------------------------|------------------------------|
|---------------------------|------------------------------|
|---------------------------|-------------------5-(5)-5----|
|-5-5-5-5-5-5-6-6-6-3---3-0-|-5-5-5-5-5-5-6-6-6---------0--|


E S S E S S S S S S S S E E S S E S S S S S S +S S E
|---------------------------|------------------------------|
|---------------------------|------------------------------|
|---------------------------|-------------------5-(5)-5----|
|-5-5-5-5-5-5-6-6-6-3---3-0-|-5-5-5-5-5-5-6-6-6---------0--|


E S S E S S S S S S S S E E S S E S S S S S S +S S E
|---------------------------|------------------------------|
|---------------------------|------------------------------|
|---------------------------|-------------------5-(5)-5----|
|-5-5-5-5-5-5-6-6-6-3---3-0-|-5-5-5-5-5-5-6-6-6---------0--|


E S S E S S S S S S S S E E S S E S S S S S S +S S E
|---------------------------|------------------------------|
|---------------------------|-------------------5-(5)-5----|
|-3-3-3-3-3-3-4-4-4-1---1---|-3-3-3-3-3-3-4-4-4------------|
|-------------------------5-|---------------------------5--|


E S S E S S S S S S S S E E S S E S S S S S S +S S E
|---------------------------|------------------------------|
|---------------------------|-------------------5-(5)-5----|
|-3-3-3-3-3-3-4-4-4-1---1---|-3-3-3-3-3-3-4-4-4------------|
|-------------------------5-|---------------------------5--|


Вроде подходит, но не совсем. Ладно, надеюсь LifeKILLED это хоть чуть-чуть поможет.


-----
Wanna BLOOD???
...Someone BLOOD???
Spill your own BLOOD at first!!!

Всего записей: 35 : Дата рег-ции: Март 2005 : Отправлено: 26 Января, 2006 - 10:05:03
LifeKILLED




Откуда: from burning desert. ...

ICQ
Вернуться к началу
WWW : Профиль :

Цитата:
Ладно, надеюсь LifeKILLED это хоть чуть-чуть поможет.


Я уж без помощи обойдусь, хотя спасибо. Скажи, ForAdun, у тебя какой инструмент? Может, сам тогда и сыграешь? А то мне играть не в лом... А вот от DeadFire требуются удары в секунду, чтобы можно было потом взять и все свести без заморочек.

Всего записей: 1694 : Дата рег-ции: Июль 2004 : Отправлено: 28 Января, 2006 - 01:16:16
ForAdun



Ученик мясника
Откуда: Aiur
ICQ
Вернуться к началу
WWW : Профиль :

я щас без инструментаЗлость, так что играю тока на репах, а щас холодно... я суетнусь, мож ченить смогу.

-----
Wanna BLOOD???
...Someone BLOOD???
Spill your own BLOOD at first!!!

Всего записей: 35 : Дата рег-ции: Март 2005 : Отправлено: 28 Января, 2006 - 10:30:25
Khorne


Пушечное мясо
ICQ
Вернуться к началу
Профиль :

яркая тема ))

Всего записей: 7 : Дата рег-ции: Дек. 2007 : Отправлено: 15 Декабря, 2007 - 15:00:55
| Версия для печати |
| Новая тема | Ответить | | Поиск в теме |


Blood: The Game We Playing In
Music, f***, that we listen, when we playing Blood
Зацените демо "Main Blood ­ Theme"!
[Страниц (2): « 1 [2] ]


Powered by ExBB 1.9.1
Original Style v1.5a2 created by Daemon.XP


Рейтинг@Mail.ru