Список форумов .::Russian Blood Community Forum::.
Официальный форум русского сообщества фанатов игры BLOOD
Deep Cold Grave
Официальный сайт издательства ОНО
BloodGame

 

Blood: The Game We Playing In
Music, f***, that we listen, when we playing Blood
Тексты к песням
[Страниц (3): « 1 [2] 3 » ]

Тексты к песням
| Новая тема | Ответить | | Поиск в теме |
| Версия для печати |
Hellen



The Eye Of Beast

Вернуться к началу
Профиль :

Да есть. Причем со словами. Unholy Voices и Infuscomus - там вроде бы тоже есть слова, но их чересчур сложно разобрать. А вот в Pestis Cruento(1 игручая дорожка на диске) - там вполне разборчивая лирика на кабальском.
Исполняется а-ля Gregorian, только не поймешь, то ли они в натуре наняли мужской католический хор и заставили выучить эту кабальскую песню, то ли там один вокалист, а его потом "обработали".
Странно, вы видимо, невнимательно диск изучали что ли ?
Но, в любом случае, говорят, что раньше где-то даже лежала лирика Pestis Cruento, но теперь вроде бы не лежит.
Итак, кто будет такой смелый и перепишет слова?

Всего записей: 651 : Дата рег-ции: Июнь 2004 : Отправлено: 19 Августа, 2005 - 01:56:47
Slava



Нирвана
Откуда: MSK

Вернуться к началу
Профиль :

Цитата:
А еще я очень люблю петь Nightwish. Особенно Beauty and the Beast/Astral Romance/Beauty of the Beast.
А как насчет Sleeping Sun? Моя любимая песня.

Всего записей: 888 : Дата рег-ции: Июнь 2004 : Отправлено: 19 Августа, 2005 - 05:18:42
Slava



Нирвана
Откуда: MSK

Вернуться к началу
Профиль :

Цитата:
Итак, кто будет такой смелый и перепишет слова?

Track #2. Pestis Cruento
pestis cruento - Blessed (formal)
vilomaxus - Order (formal)
pretiacruento - Blood heaven (formal)
cruento pestis - Curse (formal)
shaantitus - Chaos (formal)
caecux - Unbeliever Humanity (formal)
infuscomus - To make dark (formal)
lokemundux - World (formal)
bhuudesco - To become (formal)

cruento paashaeximus - Ecstasy/enlightenment (formal)
profanuxes - Pray (formal)
durbentia - Wisdom (formal)
pretaanluxis - Living dead (formal)
bhuudesco - To become (formal)
praaNsilenux - Spirit (formal)
quodpipax? - Unquenchable (formal)
cruonit? - Bloodthirsty (colloquial)
bhuudesco - To become (formal)
invisuu - Hate (formal)
bhuudesco - To become (formal)
rudsceleratus - Believer (formal)
cruentu? - Bloodhungry (formal)
invisuu - Hate (formal)
acerbus-shatruex - Light (formal)
pretiacruento - Blood heaven (formal)
geropayati - To have, possess (formal)
pretiacruento - Blood heaven (formal)
cruento pestis - Curse (formal)
Shatruex - Enemies (formal)
prayaNavita - Massacre (formal)
domus-bhaava - Home (formal)
infuscomus - To make dark (formal)
lokemundux - World (formal)
bhuudesco - To become (formal)
cruento paashaeximus - Ecstasy/enlightenment (formal)

Всего записей: 888 : Дата рег-ции: Июнь 2004 : Отправлено: 19 Августа, 2005 - 08:18:05
SLADER



Палач
Откуда: Tokyo, Japan

Вернуться к началу
Профиль :

Цитата:
Ну, вообще, да. Могу даже Room Of Angel вытянуть…

О-ООЛюбовьЛюбовьЛюбовь

-----
Be the change you want to see in the world...

Всего записей: 452 : Дата рег-ции: Окт. 2004 : Отправлено: 19 Августа, 2005 - 10:04:13
Hellen



The Eye Of Beast

Вернуться к началу
Профиль :

Слава, круто! Спасибо! Теперь неплохо, очень неплохо было бы выложить это где-нибудь на сайте.
А, Sleeping Sun тоже люблю, только припев в конце не дотягиваю, тяжело. И вообще, я же никогда не числилась в артистках фии-нских оп-перных теат-ров Голливудская улыбка

SLADER
Споемся!Улыбка

Всего записей: 651 : Дата рег-ции: Июнь 2004 : Отправлено: 19 Августа, 2005 - 15:02:34
SLADER



Палач
Откуда: Tokyo, Japan

Вернуться к началу
Профиль :

Цитата:
Споемся!

Сопьемсягы-гы! , нет пожалуй это не лучшее решение, споемся возможноЛюбовь
оппс не тот смайл, хотя...

-----
Be the change you want to see in the world...

Всего записей: 452 : Дата рег-ции: Окт. 2004 : Отправлено: 19 Августа, 2005 - 15:10:11
Гость


УДАЛЁН

Вернуться к началу

Даа, словарик, конечно хороший,но если помещать где-нибудь на сайте, то желательно сделать русский перевод и убрать из скобочек "formal", к черту он нужен! Опс... это вообще не словарик не в себе Шокирован

Отправлено: 19 Августа, 2005 - 19:09:21
Hellen



The Eye Of Beast

Вернуться к началу
Профиль :

Цитата:
Даа, словарик, конечно хороший,но если помещать где-нибудь на сайте, то желательно сделать русский перевод и убрать из скобочек "formal"

Ужо сделано Подмигивание

Всего записей: 651 : Дата рег-ции: Июнь 2004 : Отправлено: 19 Августа, 2005 - 19:37:30
Komap



Пушечное мясо
Откуда: Сфера

Вернуться к началу
Профиль :

SLADER

Поделись плиз аккордами на Theme Of Laura !!!
Или скажите где мона всё ета найти... гы-гы!

(Отредактировано автором: 24 Августа, 2005 - 22:01:36)

-----
Добро всегда побеждает зло , следовательно кто победил , тот и добрый...

Всего записей: 2 : Дата рег-ции: Авг. 2005 : Отправлено: 24 Августа, 2005 - 21:56:16
SLADER



Палач
Откуда: Tokyo, Japan

Вернуться к началу
Профиль :

Странно, вообще - "кто ищет тот всегда найдет", лень было поискать в Интернете, сам, где взял я не помню...честно.
Сразу предупрежу, объяснять как играть я не намерен, там и так все предельно ясно.

Вот держи, это Theme of Laura я ее почти разучил, уже нормально играю, далее Cradle of Forest

Akira Yamaoka - Theme of Laura

From Silent Hill 2 OST


Intro
Guitar One
e|------------------------------------------------|
B|------------------------------------------------|
G|------------------------------------------------|
D|-2-2-2-2-2-x-4-4-4-4-4-x-5-5-5-5-5--5h7-7-5-5-4-|
A|-3-3-3-3-3-x-5-5-5-5-5-x-7-7-7-7-7--7-7-7-7-7-5-|
E|------------------------------------------------|
repeat: then last time:
e|-----------------------------------------------|
B|-----------------------------------------------|
G|-----------------------------------------------|
D|-2-2-2-2-2-x-4-4-4-4-4-x-2-2-2-2-2-x-4-4-4-4-4-|
A|-3-3-3-3-3-x-5-5-5-5-5-x-3-3-3-3-3-x-5-5-5-5-5-|
E|-----------------------------------------------|

Guitar two lead bit: w/phase and delay effects (@ 0:12)
e|------------------------7-7-5----7------7------|
B|----5---7----8--7---5---------5----------------|
G|--4--------------------------------------------|


========================
Next, Guitar one plays the intro rhythm part

Guitar two:
main riff
e|----------------------|------------------------|
B|-----3^---------------|------------------------|
G|--------4----2---4^-0-|-------4--2--------7--4-|
D|---5------------------|-4--5--------2-/5-------|
A|-3--------------------|------------------------|
E|----------------------|------------------------|

e|----------------------|------------------------|
B|-----3^---------------|------------------------|
G|--------4----2---4^-0-|-------4--2-/7----/9-4--|
D|---5------------------|-4--5-------------------|
A|-3--------------------|------------------------|
E|----------------------|------------------------|

Weird sitar thing lead part: (0:32)
e|------------------------------------------|
B|-5----7----8------7-5-----3-----5-----7---|
G|------------------------------------------|
D|------------------------------------------|
A|------------------------------------------|
E|------------------------------------------|

===========================
(0:41)
Guitar one can play an Em chord throughout this part

Guitar two
e|-------------------0-------------------|
B|-------------------0-------------------|
G|-------------------0-------------------|
D|-------------------2-------------------|
A|-----2-----2-2-----2----------4--3--2--|
E|-0---0---0-0-0--0--0-------0-----------|


============================
(0:59)
Guitar one
e|-3~-----2~--------------------0~-------------------3-|
B|-1~-----3~--------------------0~-----------------1---|
G|-2~-----2~--------------------0~---------------2-----|
D|-0~-----0~--------------------2~---------------------|
A|------------------------------2~---------------------|
E|------------------------------0~---------------------|
||
||
||Guitar two
e|-----------------------------------------------------|
B|-------(0)--5/(7)/8--7--7-8-7-5----\0----------------|
G|-----------------------------------------------------|
D|-----------------------------------------------------|
A|-----------------------------------------------------|
E|-----------------------------------------------------|

One
e|-3~-----2~--------------------0~--------------------------|
B|-1~-----3~--------------------0~--------------8-10-8-7-5--|
G|-2~-----2~--------------------0~--------------------------|
D|-0~-----0~--------------------2~--------------------------|
A|------------------------------2~--------------------------|
E|------------------------------0~--------------------------|
||
||
||Two
e|----------------------------------------------------------|
B|-------(0)--5/(7)/8--7--7-8-7-5----/10-----(7)------------|
G|----------------------------------------------------------|
D|----------------------------------------------------------|
A|----------------------------------------------------------|
E|----------------------------------------------------------|
(1:18)

One
e|-----------------------------|-----------------------------|
B|---------------/8--7-7-h8--5-|---------------/8--8-7-h8--5-|
G|-----------------------------|-----------------------------|
D|-----------------------------|-----------------------------|
A|-----------------------------|-----------------------------|
E|-----------------------------|-----------------------------|
||
||
||Two
e|------------5-8~-------------|-----------5-8~--------------|
B|--------5-8------------------|-------5-8-------------------|
G|---5-7-----------------------|---5-7-----------------------|
D|-7---------------------------|-7---------------------------|
A|-----------------------------|-----------------------------|
E|-----------------------------|-----------------------------|

One (from violin ----------------->Подмигивание
e|-----------------------------|-------------------------12-10-|
B|---------------/8--8-7h8-7h8-|-9-----------9p8h9/12----------|
G|-----------------------------|-------------------------------|
D|-----------------------------|-------------------------------|
A|-----------------------------|-------------------------------|
E|-----------------------------|-------------------------------|
||
||
||Two
e|------------5-8~-------------|-------------------------------|
B|--------5-8------------------|-------------------------------|
G|---5-7-----------------------|-------------------------------|
D|-7---------------------------|2-2-2-2-2-2-2-2-2-2-2-2-2-2-2-2|
A|-----------------------------|2-2-2-2-2-2-2-2-2-2-2-2-2-2-2-2|
E|-----------------------------|0-0-0-0-0-0-0-0-0-0-0-0-0-0-0-0|


==============

(1:37)
Chords (repeat)
e|--------------------------------|
B|--------------------------------|
G|--------------------------------|
D|5-5-5-5-4-4-4-4-2-2-2-2-4-4-4-4-|
A|7-7-7-7-5-5-5-5-3-3-3-3-5-5-5-5-|
E|--------------------------------|

Lead (repeat)
e|--------------------------------------------------------------------|
B|--------------------------------------------------------------------|
G|-12-12-12-11-11-12-/14-9-----6-8-9---9-9---8--9-8-9----9---8--6-8-9-|
D|---------------------------9-------------9---------------9----------|
A|--------------------------------------------------------------------|
E|--------------------------------------------------------------------|

Violin fill (2:17)
e|---------------------|
B|-7h8/10---8p7\5------|
G|------------------4--|


==================
At 2:19, go back to intro chord riff.

At 2:29, theres a little violin part:
e|------------------------------|-----------------------------------------|
B|-5h7/8~----7p5\3~---5h7p5~----|-5h7/8~---7h8/10~----8p7\5-----7/8\7~----|
G|------------------------------|-----------------------------------------|

Then at 2:39 its back to the main riff and the part that follows

finish on:
e|-0-|
B|-0-|
G|-0-|
D|-2-|
A|-2-|
E|-0-|


(Добавление)
_________________________________________________________________________________



А это Cradle of Forest - Любимая песня Hellen, я ее недавно начал играть.

Symbols used:
x = muted string
rit. = gradually slow down ("ritardando")


Chords used:

Код:
Em G C B7 D/A Cadd9 Am Cmaj7
-0----3----0---------2----0------------------
-0----0----1----0----3----3------1----0------
-0----0----0----2----2----0------2----0------
-2----0----2----1----0----2------2----2------
-2----2----3----2----0----3------0----3------
-0----3--------------------------------------
 
Standard tuning: (low to high) EADGBe
 
Vocals: Joe Romersa
 
 
Intro:
======
 
Em G C B7
|-----------------7-----------------------------------------------|
|-7-------------------------------8---------------7---------------|
|-----9---------------9---------------9---------------9-------8---|
|-----------------------------------------------------------------|
|-----------------------------------------------------------------|
|-----------------------------------------------------------------| x4
 
Verse:
======
 
(Em) (G)
|-----------------0-------------------------------3---------------
|---------------------0-------------------------------0-----------
|-------------0-----------0-------------------0-----------0-------
|---------2-------------------2-----------0-------------------0---
|-----2-------------------------------2---------------------------
|-0-------------------------------3-------------------------------
 
(D/A) ©
-----------------2-------------------------------0---------------|
-------------3-------3-----------------------1-------1-----------|
---------2---------------2---------------0---------------0-------|
-----0-----------------------0-------2-----------------------2---|
-0-------------------------------3-------------------------------|
-----------------------------------------------------------------| x2
 
Strummin' part [w/ approximate rhythm]
 
Em / / / / / / / / G / / / / / / / /
|-0-------------------------------3-------------------------------
|-0-------------------------------0-------------------------------
|-0-------------------------------0-------------------------------
|-2-------------------------------0-------------------------------
|-2-------------------------------2-------------------------------
|-0-------------------------------3-------------------------------
 
D/A / / / / / / / / C / / / / /
-2-------------------------------0---------------0---0-----------|
-3-------------------------------1---------------3---1-----------|
-2-------------------------------0---------------0---0-----------|
-0-------------------------------2---------------2---2-----------|
-0-------------------------------3---------------3---3-----------|
-----------------------------------------------------------------| x3
 
Em / / / / / / / / G / / / / / / / /  
-0-------------------------------3-------------------------------
-0-------------------------------0-------------------------------
-0-------------------------------0-------------------------------
-2-------------------------------0-------------------------------
-2-------------------------------2-------------------------------
-0-------------------------------3-------------------------------
 
D/A / / / / / / / / C
-2-------------------------------0-------------------------------
-3-------------------------------1-------------------------------
-2-------------------------------0-------------------------------
-0-------------------------------2-------------------------------
-0-------------------------------3-------------------------------
-----------------------------------------------------------------
 
Chorus:
=======
 
Em G D/A Am Am G C B7 x2
 
After playing verse and chorus once, play the intro again.
 
Repeat verse and chorus, then play this:
 
Em
|---------------------------0-----|
|---------------------------0-----|
|-----------0-0-0-----------0-----|
|-x-2-2-2-2-2-2-2-x-x-x-x-x-------|
|-x-2-2-2-2-2-2-2-x-x-x-x-x-------|
|-x-0-0-0-0-0-0-0-x-x-x-x-x-------| x3
 
Em
---------------0-----------------
---------------0-----------------
-----------0-0-0-----------------
-x-2-2-2-2-2-2-------------------
-x-2-2-2-2-2-2-------------------
-x-0-0-0-0-0-0-------------------
 
Strings solo:
=============
 
Em G C B7
|-14--15------14--------12-----------------15--------------------
|---------12-------------------12--15--13------12-----13--12-----
|----------------------------------------------------------------
|----------------------------------------------------------------
|----------------------------------------------------------------
|----------------------------------------------------------------
 
Em G C B7
-14--15------14--------12-----14-15-17--------15-14---------------|
---------12-----------------------------------------17-----16-----|
------------------------------------------------------------------|
------------------------------------------------------------------|
------------------------------------------------------------------|
------------------------------------------------------------------| x2
 
Post-solo:
==========
 
(Em) (G) (D/A) (Am)
-----------------------------------------------------------------
-------------0---------------------------3-----------------------
-------------------------0-------------------2---------------2---
---------2-------------------0-------0-----------2-------2-------
-----2---------------2-----------0-------------------0-----------
-0---------------3-----------------------------------------------
 
(Am) (G) (Cmaj7) (B7)
-----------------------------------------------------------------
-------------1-----------0-------------------0-------------------
---------2-------------------0-----------0---------------2-------
-----2-------------------------------2---------------1-------1---
-0-------------------2-----------3---------------2---------------
-----------------3-----------------------------------------------
 
Chorus:
=======
 
Em G D/A Am Am G C B7 x4
 
Then play Intro again.
 
Outro:
======
 
(Em) (G) (D/A) (Am)
-----------------------------------------------------------------
-------------0---------------------------3-----------------------
-------------------------0-------------------2---------------2---
---------2-------------------0-------0-----------2-------2-------
-----2---------------2-----------0-------------------0-----------
-0---------------3-----------------------------------------------
 
(Am) (G) (Cmaj7) (B7)
-----------------------------------------------------------------
-------------1-----------0-------------------0-------------------
---------2-------------------0-----------0---------------2-------
-----2-------------------------------2---------------1-------1---
-0-------------------2-----------3---------------2---------------
-----------------3-----------------------------------------------
 
 
(Em) (G) (D/A) (Am)
-----------------------------------------------------------------
-------------0---------------------------3-----------------------
-------------------------0-------------------2---------------2---
---------2-------------------0-------0-----------2-------2-------
-----2---------------2-----------0-------------------0-----------
-0---------------3-----------------------------------------------
 
(Am) (G) (Cmaj7) (B7)
-----------------------------------------------------------------
-------------1-----------0-------------------0-------------------
---------2-------------------0-----------0---------------2-------
-----2-------------------------------2---------------1-------1---
-0-------------------2-----------3---------------2---------------
-----------------3-----------------------------------------------
rit.
 
-----------------------------------------------------------------
-----------------------------------------------------------------
-----------------------------------------------------------------
-----------------------------------------------------------------
-----------------------------------------------------------------
--0--------------------------------------------------------------


-----
Be the change you want to see in the world...

Всего записей: 452 : Дата рег-ции: Окт. 2004 : Отправлено: 25 Августа, 2005 - 13:56:37
| Версия для печати |
| Новая тема | Ответить | | Поиск в теме |


Blood: The Game We Playing In
Music, f***, that we listen, when we playing Blood
Тексты к песням
[Страниц (3): « 1 [2] 3 » ]


Powered by ExBB 1.9.1
Original Style v1.5a2 created by Daemon.XP


Рейтинг@Mail.ru